ISO-10303-21;
HEADER;
FILE_DESCRIPTION (( 'STEP AP203' ),
    '1' );
FILE_NAME ('Q-QZWP-R4-25.4-2020-M.STEP',
    '2020-12-23T01:27:11',
    ( '' ),
    ( '' ),
    'SwSTEP 2.0',
    'SolidWorks 2020',
    '' );
FILE_SCHEMA (( 'CONFIG_CONTROL_DESIGN' ));
ENDSEC;

DATA;
#1 = DIRECTION ( 'NONE',  ( -1.000000000000000000, -0.000000000000000000, -0.000000000000000000 ) ) ;
#2 = CLOSED_SHELL ( 'NONE', ( #146, #80, #56, #41 ) ) ;
#3 = FACE_OUTER_BOUND ( 'NONE', #94, .T. ) ;
#4 = APPLICATION_PROTOCOL_DEFINITION ( 'international standard', 'config_control_design', 1994, #162 ) ;
#5 = DIRECTION ( 'NONE',  ( 0.000000000000000000, 0.000000000000000000, 1.000000000000000000 ) ) ;
#6 = APPROVAL_STATUS ( 'not_yet_approved' ) ;
#7 = DIRECTION ( 'NONE',  ( 1.000000000000000000, 0.000000000000000000, 0.000000000000000000 ) ) ;
#8 = APPLICATION_CONTEXT ( 'configuration controlled 3d designs of mechanical parts and assemblies' ) ;
#9 = APPROVAL ( #31, 'UNSPECIFIED' ) ;
#10 = APPROVAL_PERSON_ORGANIZATION ( #34, #9, #153 ) ;
#11 = PERSON ( 'UNSPECIFIED', 'UNSPECIFIED', 'UNSPECIFIED', ('UNSPECIFIED'), ('UNSPECIFIED'), ('UNSPECIFIED') ) ;
#12 = PRODUCT ( 'Q-QZWP-R4-25.4-2020-M', 'Q-QZWP-R4-25.4-2020-M', '', ( #20 ) ) ;
#13 = LOCAL_TIME ( 9, 27, 11.00000000000000000, #29 ) ;
#14 = APPROVAL_ROLE ( '' ) ;
#15 = DATE_AND_TIME ( #98, #104 ) ;
#16 = CYLINDRICAL_SURFACE ( 'NONE', #121, 15.00000000000000000 ) ;
#17 = LOCAL_TIME ( 9, 27, 11.00000000000000000, #150 ) ;
#18 = VERTEX_POINT ( 'NONE', #139 ) ;
#19 = LINE ( 'NONE', #90, #87 ) ;
#20 = MECHANICAL_CONTEXT ( 'NONE', #162, 'mechanical' ) ;
#21 = AXIS2_PLACEMENT_3D ( 'NONE', #128, #7, #22 ) ;
#22 = DIRECTION ( 'NONE',  ( 0.000000000000000000, 0.000000000000000000, -1.000000000000000000 ) ) ;
#23 = ADVANCED_BREP_SHAPE_REPRESENTATION ( 'Q-QZWP-R4-25.4-2020-M', ( #151, #147 ), #123 ) ;
#24 = EDGE_LOOP ( 'NONE', ( #103, #112 ) ) ;
#25 = CC_DESIGN_APPROVAL ( #69, ( #77 ) ) ;
#26 = CARTESIAN_POINT ( 'NONE',  ( -3.000000000000000000, 0.000000000000000000, 0.000000000000000000 ) ) ;
#27 = APPROVAL_PERSON_ORGANIZATION ( #141, #119, #169 ) ;
#28 = AXIS2_PLACEMENT_3D ( 'NONE', #154, #86, #5 ) ;
#29 = COORDINATED_UNIVERSAL_TIME_OFFSET ( 8, 0, .AHEAD. ) ;
#30 = UNCERTAINTY_MEASURE_WITH_UNIT (LENGTH_MEASURE( 1.000000000000000082E-05 ), #76, 'distance_accuracy_value', 'NONE');
#31 = APPROVAL_STATUS ( 'not_yet_approved' ) ;
#32 = PLANE ( 'NONE',  #21 ) ;
#33 = FACE_OUTER_BOUND ( 'NONE', #155, .T. ) ;
#34 = PERSON_AND_ORGANIZATION ( #11, #149 ) ;
#35 = PLANE ( 'NONE',  #161 ) ;
#36 = PERSON_AND_ORGANIZATION_ROLE ( 'design_owner' ) ;
#37 = ORIENTED_EDGE ( 'NONE', *, *, #99, .F. ) ;
#38 = EDGE_LOOP ( 'NONE', ( #132, #88, #152, #137 ) ) ;
#39 = DIRECTION ( 'NONE',  ( -1.000000000000000000, -0.000000000000000000, -0.000000000000000000 ) ) ;
#40 = CC_DESIGN_SECURITY_CLASSIFICATION ( #77, ( #109 ) ) ;
#41 = ADVANCED_FACE ( 'NONE', ( #142 ), #32, .F. ) ;
#42 = PRODUCT_RELATED_PRODUCT_CATEGORY ( 'detail', '', ( #12 ) ) ;
#43 = PRODUCT_DEFINITION ( 'UNKNOWN', '', #109, #55 ) ;
#44 = DATE_AND_TIME ( #148, #17 ) ;
#45 = CC_DESIGN_APPROVAL ( #119, ( #109 ) ) ;
#46 = ORIENTED_EDGE ( 'NONE', *, *, #120, .T. ) ;
#47 = PERSON_AND_ORGANIZATION_ROLE ( 'classification_officer' ) ;
#48 = VERTEX_POINT ( 'NONE', #116 ) ;
#49 = DIRECTION ( 'NONE',  ( 0.000000000000000000, 0.000000000000000000, 1.000000000000000000 ) ) ;
#50 = DIRECTION ( 'NONE',  ( -1.000000000000000000, 0.000000000000000000, -0.000000000000000000 ) ) ;
#51 = CARTESIAN_POINT ( 'NONE',  ( -3.000000000000000000, 0.000000000000000000, 0.000000000000000000 ) ) ;
#52 = CC_DESIGN_PERSON_AND_ORGANIZATION_ASSIGNMENT ( #157, #164, ( #109 ) ) ;
#53 = DATE_AND_TIME ( #117, #145 ) ;
#54 = DIRECTION ( 'NONE',  ( -1.000000000000000000, -0.000000000000000000, -0.000000000000000000 ) ) ;
#55 = DESIGN_CONTEXT ( 'detailed design', #8, 'design' ) ;
#56 = ADVANCED_FACE ( 'NONE', ( #3 ), #16, .T. ) ;
#57 = PRODUCT_DEFINITION_SHAPE ( 'NONE', 'NONE',  #43 ) ;
#58 = PERSON_AND_ORGANIZATION ( #11, #149 ) ;
#59 = CC_DESIGN_DATE_AND_TIME_ASSIGNMENT ( #44, #160, ( #77 ) ) ;
#60 = DIRECTION ( 'NONE',  ( 0.000000000000000000, 0.000000000000000000, 1.000000000000000000 ) ) ;
#61 = DIRECTION ( 'NONE',  ( 0.000000000000000000, 0.000000000000000000, 1.000000000000000000 ) ) ;
#62 = ORIENTED_EDGE ( 'NONE', *, *, #105, .F. ) ;
#63 = COORDINATED_UNIVERSAL_TIME_OFFSET ( 8, 0, .AHEAD. ) ;
#64 = CYLINDRICAL_SURFACE ( 'NONE', #159, 15.00000000000000000 ) ;
#65 = PERSON_AND_ORGANIZATION_ROLE ( 'creator' ) ;
#66 = ORIENTED_EDGE ( 'NONE', *, *, #115, .T. ) ;
#67 = CIRCLE ( 'NONE', #68, 15.00000000000000000 ) ;
#68 = AXIS2_PLACEMENT_3D ( 'NONE', #51, #1, #75 ) ;
#69 = APPROVAL ( #174, 'UNSPECIFIED' ) ;
#70 = SECURITY_CLASSIFICATION_LEVEL ( 'unclassified' ) ;
#71 = CC_DESIGN_PERSON_AND_ORGANIZATION_ASSIGNMENT ( #143, #36, ( #12 ) ) ;
#72 = CARTESIAN_POINT ( 'NONE',  ( 3.000000000000000888, 12.69999999999999929, 0.000000000000000000 ) ) ;
#73 = DIRECTION ( 'NONE',  ( 0.000000000000000000, 0.000000000000000000, 1.000000000000000000 ) ) ;
#74 = COORDINATED_UNIVERSAL_TIME_OFFSET ( 8, 0, .AHEAD. ) ;
#75 = DIRECTION ( 'NONE',  ( 0.000000000000000000, 0.000000000000000000, 1.000000000000000000 ) ) ;
#76 =( LENGTH_UNIT ( ) NAMED_UNIT ( * ) SI_UNIT ( .MILLI., .METRE. ) );
#77 = SECURITY_CLASSIFICATION ( '', '', #70 ) ;
#78 = VERTEX_POINT ( 'NONE', #126 ) ;
#79 = SHAPE_DEFINITION_REPRESENTATION ( #57, #23 ) ;
#80 = ADVANCED_FACE ( 'NONE', ( #33 ), #35, .F. ) ;
#81 = CARTESIAN_POINT ( 'NONE',  ( -1.614212418857619014, 0.000000000000000000, 0.000000000000000000 ) ) ;
#82 =( NAMED_UNIT ( * ) PLANE_ANGLE_UNIT ( ) SI_UNIT ( $, .RADIAN. ) );
#83 = PERSON_AND_ORGANIZATION ( #11, #149 ) ;
#84 = CARTESIAN_POINT ( 'NONE',  ( -1.614212418857619014, 0.000000000000000000, 15.00000000000000000 ) ) ;
#85 = CALENDAR_DATE ( 2020, 23, 12 ) ;
#86 = DIRECTION ( 'NONE',  ( -1.000000000000000000, -0.000000000000000000, -0.000000000000000000 ) ) ;
#87 = VECTOR ( 'NONE', #172, 1000.000000000000000 ) ;
#88 = ORIENTED_EDGE ( 'NONE', *, *, #105, .T. ) ;
#89 = PERSON_AND_ORGANIZATION_ROLE ( 'design_supplier' ) ;
#90 = CARTESIAN_POINT ( 'NONE',  ( -1.614212418857619014, 1.836970198721029589E-15, -15.00000000000000000 ) ) ;
#91 = APPROVAL_PERSON_ORGANIZATION ( #83, #69, #14 ) ;
#92 = CC_DESIGN_APPROVAL ( #9, ( #43 ) ) ;
#93 = CC_DESIGN_PERSON_AND_ORGANIZATION_ASSIGNMENT ( #125, #47, ( #77 ) ) ;
#94 = EDGE_LOOP ( 'NONE', ( #62, #46, #66, #37 ) ) ;
#95 = CARTESIAN_POINT ( 'NONE',  ( 0.000000000000000000, 0.000000000000000000, 0.000000000000000000 ) ) ;
#96 = LOCAL_TIME ( 9, 27, 11.00000000000000000, #74 ) ;
#97 = VERTEX_POINT ( 'NONE', #130 ) ;
#98 = CALENDAR_DATE ( 2020, 23, 12 ) ;
#99 = EDGE_CURVE ( 'NONE', #48, #18, #67, .T. ) ;
#100 = FACE_OUTER_BOUND ( 'NONE', #38, .T. ) ;
#101 = APPROVAL_DATE_TIME ( #53, #119 ) ;
#102 = VECTOR ( 'NONE', #54, 1000.000000000000000 ) ;
#103 = ORIENTED_EDGE ( 'NONE', *, *, #134, .T. ) ;
#104 = LOCAL_TIME ( 9, 27, 11.00000000000000000, #63 ) ;
#105 = EDGE_CURVE ( 'NONE', #97, #48, #19, .T. ) ;
#106 = CIRCLE ( 'NONE', #28, 15.00000000000000000 ) ;
#107 = CC_DESIGN_PERSON_AND_ORGANIZATION_ASSIGNMENT ( #135, #65, ( #43 ) ) ;
#108 = CIRCLE ( 'NONE', #124, 15.00000000000000000 ) ;
#109 = PRODUCT_DEFINITION_FORMATION_WITH_SPECIFIED_SOURCE ( 'ANY', '', #12, .NOT_KNOWN. ) ;
#110 = DATE_TIME_ROLE ( 'creation_date' ) ;
#111 = CALENDAR_DATE ( 2020, 23, 12 ) ;
#112 = ORIENTED_EDGE ( 'NONE', *, *, #99, .T. ) ;
#113 = DIRECTION ( 'NONE',  ( -1.000000000000000000, -0.000000000000000000, -0.000000000000000000 ) ) ;
#114 = DIRECTION ( 'NONE',  ( -1.000000000000000000, -0.000000000000000000, -0.000000000000000000 ) ) ;
#115 = EDGE_CURVE ( 'NONE', #78, #18, #136, .T. ) ;
#116 = CARTESIAN_POINT ( 'NONE',  ( -3.000000000000000000, 1.836970198721029589E-15, -15.00000000000000000 ) ) ;
#117 = CALENDAR_DATE ( 2020, 23, 12 ) ;
#118 = DIRECTION ( 'NONE',  ( 0.000000000000000000, 0.000000000000000000, 1.000000000000000000 ) ) ;
#119 = APPROVAL ( #6, 'UNSPECIFIED' ) ;
#120 = EDGE_CURVE ( 'NONE', #97, #78, #175, .T. ) ;
#121 = AXIS2_PLACEMENT_3D ( 'NONE', #81, #113, #118 ) ;
#122 = DATE_AND_TIME ( #111, #13 ) ;
#123 =( GEOMETRIC_REPRESENTATION_CONTEXT ( 3 ) GLOBAL_UNCERTAINTY_ASSIGNED_CONTEXT ( ( #30 ) ) GLOBAL_UNIT_ASSIGNED_CONTEXT ( ( #76, #82, #127 ) ) REPRESENTATION_CONTEXT ( 'NONE', 'WORKASPACE' ) );
#124 = AXIS2_PLACEMENT_3D ( 'NONE', #26, #166, #73 ) ;
#125 = PERSON_AND_ORGANIZATION ( #11, #149 ) ;
#126 = CARTESIAN_POINT ( 'NONE',  ( 3.000000000000000000, 0.000000000000000000, 15.00000000000000000 ) ) ;
#127 =( NAMED_UNIT ( * ) SI_UNIT ( $, .STERADIAN. ) SOLID_ANGLE_UNIT ( ) );
#128 = CARTESIAN_POINT ( 'NONE',  ( -3.000000000000000888, 12.69999999999999929, 0.000000000000000000 ) ) ;
#129 = DIRECTION ( 'NONE',  ( 1.000000000000000000, 0.000000000000000000, 0.000000000000000000 ) ) ;
#130 = CARTESIAN_POINT ( 'NONE',  ( 3.000000000000000000, 1.836970198721029589E-15, -15.00000000000000000 ) ) ;
#131 = APPROVAL_DATE_TIME ( #138, #9 ) ;
#132 = ORIENTED_EDGE ( 'NONE', *, *, #133, .T. ) ;
#133 = EDGE_CURVE ( 'NONE', #78, #97, #106, .T. ) ;
#134 = EDGE_CURVE ( 'NONE', #18, #48, #108, .T. ) ;
#135 = PERSON_AND_ORGANIZATION ( #11, #149 ) ;
#136 = LINE ( 'NONE', #84, #102 ) ;
#137 = ORIENTED_EDGE ( 'NONE', *, *, #115, .F. ) ;
#138 = DATE_AND_TIME ( #85, #96 ) ;
#139 = CARTESIAN_POINT ( 'NONE',  ( -3.000000000000000000, 0.000000000000000000, 15.00000000000000000 ) ) ;
#140 = CC_DESIGN_DATE_AND_TIME_ASSIGNMENT ( #15, #110, ( #43 ) ) ;
#141 = PERSON_AND_ORGANIZATION ( #11, #149 ) ;
#142 = FACE_OUTER_BOUND ( 'NONE', #24, .T. ) ;
#143 = PERSON_AND_ORGANIZATION ( #11, #149 ) ;
#144 = CARTESIAN_POINT ( 'NONE',  ( 3.000000000000000000, 0.000000000000000000, 0.000000000000000000 ) ) ;
#145 = LOCAL_TIME ( 9, 27, 11.00000000000000000, #171 ) ;
#146 = ADVANCED_FACE ( 'NONE', ( #100 ), #64, .T. ) ;
#147 = AXIS2_PLACEMENT_3D ( 'NONE', #95, #61, #129 ) ;
#148 = CALENDAR_DATE ( 2020, 23, 12 ) ;
#149 = ORGANIZATION ( 'UNSPECIFIED', 'UNSPECIFIED', '' ) ;
#150 = COORDINATED_UNIVERSAL_TIME_OFFSET ( 8, 0, .AHEAD. ) ;
#151 = MANIFOLD_SOLID_BREP ( 'Ðý×', #2 ) ;
#152 = ORIENTED_EDGE ( 'NONE', *, *, #134, .F. ) ;
#153 = APPROVAL_ROLE ( '' ) ;
#154 = CARTESIAN_POINT ( 'NONE',  ( 3.000000000000000000, 0.000000000000000000, 0.000000000000000000 ) ) ;
#155 = EDGE_LOOP ( 'NONE', ( #156, #158 ) ) ;
#156 = ORIENTED_EDGE ( 'NONE', *, *, #133, .F. ) ;
#157 = PERSON_AND_ORGANIZATION ( #11, #149 ) ;
#158 = ORIENTED_EDGE ( 'NONE', *, *, #120, .F. ) ;
#159 = AXIS2_PLACEMENT_3D ( 'NONE', #170, #114, #49 ) ;
#160 = DATE_TIME_ROLE ( 'classification_date' ) ;
#161 = AXIS2_PLACEMENT_3D ( 'NONE', #72, #50, #168 ) ;
#162 = APPLICATION_CONTEXT ( 'configuration controlled 3d designs of mechanical parts and assemblies' ) ;
#163 = CC_DESIGN_PERSON_AND_ORGANIZATION_ASSIGNMENT ( #58, #89, ( #109 ) ) ;
#164 = PERSON_AND_ORGANIZATION_ROLE ( 'creator' ) ;
#165 = APPROVAL_DATE_TIME ( #122, #69 ) ;
#166 = DIRECTION ( 'NONE',  ( -1.000000000000000000, -0.000000000000000000, -0.000000000000000000 ) ) ;
#167 = APPLICATION_PROTOCOL_DEFINITION ( 'international standard', 'config_control_design', 1994, #8 ) ;
#168 = DIRECTION ( 'NONE',  ( -0.000000000000000000, 0.000000000000000000, 1.000000000000000000 ) ) ;
#169 = APPROVAL_ROLE ( '' ) ;
#170 = CARTESIAN_POINT ( 'NONE',  ( -1.614212418857619014, 0.000000000000000000, 0.000000000000000000 ) ) ;
#171 = COORDINATED_UNIVERSAL_TIME_OFFSET ( 8, 0, .AHEAD. ) ;
#172 = DIRECTION ( 'NONE',  ( -1.000000000000000000, -0.000000000000000000, -0.000000000000000000 ) ) ;
#173 = AXIS2_PLACEMENT_3D ( 'NONE', #144, #39, #60 ) ;
#174 = APPROVAL_STATUS ( 'not_yet_approved' ) ;
#175 = CIRCLE ( 'NONE', #173, 15.00000000000000000 ) ;
ENDSEC;
END-ISO-10303-21;
